ISO-10303-21;
HEADER;
FILE_DESCRIPTION (( 'STEP AP203' ),
    '1' );
FILE_NAME ('Q-DWWP-R24-25.4-1064-SH-M.STEP',
    '2020-12-22T08:53:54',
    ( '' ),
    ( '' ),
    'SwSTEP 2.0',
    'SolidWorks 2020',
    '' );
FILE_SCHEMA (( 'CONFIG_CONTROL_DESIGN' ));
ENDSEC;

DATA;
#1 = VECTOR ( 'NONE', #304, 1000.000000000000000 ) ;
#2 = CARTESIAN_POINT ( 'NONE',  ( -0.5000000000000002220, 0.000000000000000000, 0.000000000000000000 ) ) ;
#3 = EDGE_LOOP ( 'NONE', ( #281, #56 ) ) ;
#4 = EDGE_LOOP ( 'NONE', ( #285, #14, #80, #218 ) ) ;
#5 = UNCERTAINTY_MEASURE_WITH_UNIT (LENGTH_MEASURE( 1.000000000000000082E-05 ), #48, 'distance_accuracy_value', 'NONE');
#6 = APPROVAL ( #57, 'UNSPECIFIED' ) ;
#7 = PERSON_AND_ORGANIZATION ( #96, #66 ) ;
#8 = FACE_OUTER_BOUND ( 'NONE', #4, .T. ) ;
#9 = VECTOR ( 'NONE', #160, 1000.000000000000000 ) ;
#10 = COORDINATED_UNIVERSAL_TIME_OFFSET ( 8, 0, .AHEAD. ) ;
#11 = ORIENTED_EDGE ( 'NONE', *, *, #44, .T. ) ;
#12 = APPROVAL_DATE_TIME ( #263, #6 ) ;
#13 = DIRECTION ( 'NONE',  ( 0.000000000000000000, 0.000000000000000000, 1.000000000000000000 ) ) ;
#14 = ORIENTED_EDGE ( 'NONE', *, *, #273, .T. ) ;
#15 = CYLINDRICAL_SURFACE ( 'NONE', #91, 3.000000000000000000 ) ;
#16 = FACE_OUTER_BOUND ( 'NONE', #164, .T. ) ;
#17 = PERSON_AND_ORGANIZATION ( #96, #66 ) ;
#18 = ADVANCED_BREP_SHAPE_REPRESENTATION ( 'Q-DWWP-R24-25.4-1064-SH-M', ( #116, #196 ), #318 ) ;
#19 = CARTESIAN_POINT ( 'NONE',  ( -1.614212418857619014, 0.000000000000000000, 0.000000000000000000 ) ) ;
#20 = ADVANCED_FACE ( 'NONE', ( #8 ), #323, .F. ) ;
#21 = DIRECTION ( 'NONE',  ( -1.000000000000000000, -0.000000000000000000, -0.000000000000000000 ) ) ;
#22 = VERTEX_POINT ( 'NONE', #274 ) ;
#23 = ADVANCED_FACE ( 'NONE', ( #94 ), #270, .F. ) ;
#24 = CIRCLE ( 'NONE', #303, 3.000000000000000000 ) ;
#25 = DIRECTION ( 'NONE',  ( 0.000000000000000000, 0.000000000000000000, -1.000000000000000000 ) ) ;
#26 = EDGE_LOOP ( 'NONE', ( #207, #272, #132, #30 ) ) ;
#27 = DIRECTION ( 'NONE',  ( 0.000000000000000000, 0.000000000000000000, 1.000000000000000000 ) ) ;
#28 = VERTEX_POINT ( 'NONE', #165 ) ;
#29 = FACE_OUTER_BOUND ( 'NONE', #135, .T. ) ;
#30 = ORIENTED_EDGE ( 'NONE', *, *, #148, .T. ) ;
#31 = APPROVAL ( #242, 'UNSPECIFIED' ) ;
#32 = ORIENTED_EDGE ( 'NONE', *, *, #121, .T. ) ;
#33 = CALENDAR_DATE ( 2020, 22, 12 ) ;
#34 = DIRECTION ( 'NONE',  ( -1.000000000000000000, -0.000000000000000000, -0.000000000000000000 ) ) ;
#35 = LOCAL_TIME ( 16, 53, 54.00000000000000000, #42 ) ;
#36 = ORIENTED_EDGE ( 'NONE', *, *, #166, .F. ) ;
#37 = DIRECTION ( 'NONE',  ( -1.000000000000000000, -0.000000000000000000, -0.000000000000000000 ) ) ;
#38 = PRODUCT ( 'Q-DWWP-R24-25.4-1064-SH-M', 'Q-DWWP-R24-25.4-1064-SH-M', '', ( #147 ) ) ;
#39 = DIRECTION ( 'NONE',  ( -1.000000000000000000, -0.000000000000000000, -0.000000000000000000 ) ) ;
#40 = VECTOR ( 'NONE', #21, 1000.000000000000000 ) ;
#41 = DIRECTION ( 'NONE',  ( 0.000000000000000000, 0.000000000000000000, 1.000000000000000000 ) ) ;
#42 = COORDINATED_UNIVERSAL_TIME_OFFSET ( 8, 0, .AHEAD. ) ;
#43 = DIRECTION ( 'NONE',  ( 0.000000000000000000, 0.000000000000000000, 1.000000000000000000 ) ) ;
#44 = EDGE_CURVE ( 'NONE', #308, #311, #146, .T. ) ;
#45 = DIRECTION ( 'NONE',  ( -1.000000000000000000, -0.000000000000000000, -0.000000000000000000 ) ) ;
#46 = AXIS2_PLACEMENT_3D ( 'NONE', #97, #45, #123 ) ;
#47 = DIRECTION ( 'NONE',  ( -1.000000000000000000, -0.000000000000000000, -0.000000000000000000 ) ) ;
#48 =( LENGTH_UNIT ( ) NAMED_UNIT ( * ) SI_UNIT ( .MILLI., .METRE. ) );
#49 = LINE ( 'NONE', #240, #9 ) ;
#50 =( NAMED_UNIT ( * ) SI_UNIT ( $, .STERADIAN. ) SOLID_ANGLE_UNIT ( ) );
#51 = ADVANCED_FACE ( 'NONE', ( #214 ), #190, .F. ) ;
#52 = CARTESIAN_POINT ( 'NONE',  ( -0.5000000000000002220, 0.000000000000000000, 0.000000000000000000 ) ) ;
#53 = EDGE_LOOP ( 'NONE', ( #287, #233, #266, #36 ) ) ;
#54 = AXIS2_PLACEMENT_3D ( 'NONE', #204, #234, #332 ) ;
#55 = PERSON_AND_ORGANIZATION_ROLE ( 'design_owner' ) ;
#56 = ORIENTED_EDGE ( 'NONE', *, *, #173, .T. ) ;
#57 = APPROVAL_STATUS ( 'not_yet_approved' ) ;
#58 = EDGE_LOOP ( 'NONE', ( #264, #149 ) ) ;
#59 = AXIS2_PLACEMENT_3D ( 'NONE', #298, #201, #300 ) ;
#60 = DIRECTION ( 'NONE',  ( 0.000000000000000000, 0.000000000000000000, 1.000000000000000000 ) ) ;
#61 = CIRCLE ( 'NONE', #73, 3.000000000000000000 ) ;
#62 = ORIENTED_EDGE ( 'NONE', *, *, #69, .F. ) ;
#63 = VERTEX_POINT ( 'NONE', #143 ) ;
#64 = DIRECTION ( 'NONE',  ( 0.000000000000000000, 0.000000000000000000, 1.000000000000000000 ) ) ;
#65 = PLANE ( 'NONE',  #89 ) ;
#66 = ORGANIZATION ( 'UNSPECIFIED', 'UNSPECIFIED', '' ) ;
#67 = PERSON_AND_ORGANIZATION_ROLE ( 'creator' ) ;
#68 = FACE_OUTER_BOUND ( 'NONE', #78, .T. ) ;
#69 = EDGE_CURVE ( 'NONE', #313, #284, #291, .T. ) ;
#70 = CARTESIAN_POINT ( 'NONE',  ( 0.5000000000000004441, 0.000000000000000000, 0.000000000000000000 ) ) ;
#71 = CLOSED_SHELL ( 'NONE', ( #108, #20, #51, #292, #23, #175, #111, #216, #328, #79 ) ) ;
#72 = DIRECTION ( 'NONE',  ( 0.000000000000000000, 0.000000000000000000, 1.000000000000000000 ) ) ;
#73 = AXIS2_PLACEMENT_3D ( 'NONE', #52, #129, #25 ) ;
#74 = EDGE_CURVE ( 'NONE', #28, #290, #286, .T. ) ;
#75 = CARTESIAN_POINT ( 'NONE',  ( 1.500000000000000000, 6.123233995736766282E-16, -5.000000000000000000 ) ) ;
#76 = SECURITY_CLASSIFICATION ( '', '', #316 ) ;
#77 =( NAMED_UNIT ( * ) PLANE_ANGLE_UNIT ( ) SI_UNIT ( $, .RADIAN. ) );
#78 = EDGE_LOOP ( 'NONE', ( #189, #209 ) ) ;
#79 = ADVANCED_FACE ( 'NONE', ( #68 ), #65, .F. ) ;
#80 = ORIENTED_EDGE ( 'NONE', *, *, #74, .T. ) ;
#81 = DIRECTION ( 'NONE',  ( 1.000000000000000000, 0.000000000000000000, 0.000000000000000000 ) ) ;
#82 = VECTOR ( 'NONE', #280, 1000.000000000000000 ) ;
#83 = PERSON_AND_ORGANIZATION_ROLE ( 'classification_officer' ) ;
#84 = CARTESIAN_POINT ( 'NONE',  ( -1.500000000000000000, 0.000000000000000000, 0.000000000000000000 ) ) ;
#85 = COORDINATED_UNIVERSAL_TIME_OFFSET ( 8, 0, .AHEAD. ) ;
#86 = ORIENTED_EDGE ( 'NONE', *, *, #273, .F. ) ;
#87 = CC_DESIGN_PERSON_AND_ORGANIZATION_ASSIGNMENT ( #7, #67, ( #93 ) ) ;
#88 = CARTESIAN_POINT ( 'NONE',  ( -1.614212418857619014, 3.673940397442059868E-16, -3.000000000000000000 ) ) ;
#89 = AXIS2_PLACEMENT_3D ( 'NONE', #155, #327, #157 ) ;
#90 = CALENDAR_DATE ( 2020, 22, 12 ) ;
#91 = AXIS2_PLACEMENT_3D ( 'NONE', #19, #127, #324 ) ;
#92 = DIRECTION ( 'NONE',  ( 0.000000000000000000, 0.000000000000000000, 1.000000000000000000 ) ) ;
#93 = PRODUCT_DEFINITION ( 'UNKNOWN', '', #182, #296 ) ;
#94 = FACE_OUTER_BOUND ( 'NONE', #26, .T. ) ;
#95 = FACE_BOUND ( 'NONE', #185, .T. ) ;
#96 = PERSON ( 'UNSPECIFIED', 'UNSPECIFIED', 'UNSPECIFIED', ('UNSPECIFIED'), ('UNSPECIFIED'), ('UNSPECIFIED') ) ;
#97 = CARTESIAN_POINT ( 'NONE',  ( -1.500000000000000000, 0.000000000000000000, 0.000000000000000000 ) ) ;
#98 = DIRECTION ( 'NONE',  ( 0.000000000000000000, 0.000000000000000000, 1.000000000000000000 ) ) ;
#99 = VECTOR ( 'NONE', #247, 1000.000000000000000 ) ;
#100 = CARTESIAN_POINT ( 'NONE',  ( 0.5000000000000004441, 0.000000000000000000, 0.000000000000000000 ) ) ;
#101 = CC_DESIGN_PERSON_AND_ORGANIZATION_ASSIGNMENT ( #145, #163, ( #182 ) ) ;
#102 = ORIENTED_EDGE ( 'NONE', *, *, #162, .F. ) ;
#103 = FACE_OUTER_BOUND ( 'NONE', #320, .T. ) ;
#104 = AXIS2_PLACEMENT_3D ( 'NONE', #245, #168, #13 ) ;
#105 = AXIS2_PLACEMENT_3D ( 'NONE', #153, #151, #41 ) ;
#106 = LINE ( 'NONE', #140, #82 ) ;
#107 = VERTEX_POINT ( 'NONE', #124 ) ;
#108 = ADVANCED_FACE ( 'NONE', ( #295 ), #223, .T. ) ;
#109 = CC_DESIGN_SECURITY_CLASSIFICATION ( #76, ( #182 ) ) ;
#110 = CARTESIAN_POINT ( 'NONE',  ( 1.500000000000000444, 3.673940397442059868E-16, -3.000000000000000000 ) ) ;
#111 = ADVANCED_FACE ( 'NONE', ( #95, #325 ), #197, .F. ) ;
#112 = COORDINATED_UNIVERSAL_TIME_OFFSET ( 8, 0, .AHEAD. ) ;
#113 = LOCAL_TIME ( 16, 53, 54.00000000000000000, #85 ) ;
#114 = DATE_TIME_ROLE ( 'creation_date' ) ;
#115 = VERTEX_POINT ( 'NONE', #172 ) ;
#116 = MANIFOLD_SOLID_BREP ( 'Ðý×', #71 ) ;
#117 = DATE_AND_TIME ( #90, #271 ) ;
#118 = EDGE_CURVE ( 'NONE', #290, #28, #278, .T. ) ;
#119 = PERSON_AND_ORGANIZATION ( #96, #66 ) ;
#120 = CARTESIAN_POINT ( 'NONE',  ( -1.614212418857619014, 6.123233995736766282E-16, -5.000000000000000000 ) ) ;
#121 = EDGE_CURVE ( 'NONE', #311, #63, #154, .T. ) ;
#122 = AXIS2_PLACEMENT_3D ( 'NONE', #137, #306, #236 ) ;
#123 = DIRECTION ( 'NONE',  ( 0.000000000000000000, 0.000000000000000000, 1.000000000000000000 ) ) ;
#124 = CARTESIAN_POINT ( 'NONE',  ( -0.5000000000000002220, 3.673940397442059868E-16, -3.000000000000000000 ) ) ;
#125 = DIRECTION ( 'NONE',  ( 0.000000000000000000, 0.000000000000000000, 1.000000000000000000 ) ) ;
#126 = APPROVAL_PERSON_ORGANIZATION ( #251, #279, #224 ) ;
#127 = DIRECTION ( 'NONE',  ( -1.000000000000000000, -0.000000000000000000, -0.000000000000000000 ) ) ;
#128 = CARTESIAN_POINT ( 'NONE',  ( -1.614212418857619014, 0.000000000000000000, 0.000000000000000000 ) ) ;
#129 = DIRECTION ( 'NONE',  ( 1.000000000000000000, 0.000000000000000000, 0.000000000000000000 ) ) ;
#130 = AXIS2_PLACEMENT_3D ( 'NONE', #158, #47, #27 ) ;
#131 = EDGE_CURVE ( 'NONE', #313, #115, #321, .T. ) ;
#132 = ORIENTED_EDGE ( 'NONE', *, *, #302, .T. ) ;
#133 = EDGE_CURVE ( 'NONE', #115, #313, #159, .T. ) ;
#134 = CARTESIAN_POINT ( 'NONE',  ( -1.500000000000000000, 0.000000000000000000, 3.000000000000000000 ) ) ;
#135 = EDGE_LOOP ( 'NONE', ( #237, #243 ) ) ;
#136 = AXIS2_PLACEMENT_3D ( 'NONE', #70, #250, #252 ) ;
#137 = CARTESIAN_POINT ( 'NONE',  ( -1.614212418857619014, 0.000000000000000000, 0.000000000000000000 ) ) ;
#138 = VERTEX_POINT ( 'NONE', #275 ) ;
#139 = CIRCLE ( 'NONE', #203, 3.000000000000000000 ) ;
#140 = CARTESIAN_POINT ( 'NONE',  ( -1.614212418857619014, 0.000000000000000000, 3.000000000000000000 ) ) ;
#141 = ORIENTED_EDGE ( 'NONE', *, *, #329, .T. ) ;
#142 = PERSON_AND_ORGANIZATION ( #96, #66 ) ;
#143 = CARTESIAN_POINT ( 'NONE',  ( 0.5000000000000004441, 0.000000000000000000, 3.000000000000000000 ) ) ;
#144 = LOCAL_TIME ( 16, 53, 54.00000000000000000, #112 ) ;
#145 = PERSON_AND_ORGANIZATION ( #96, #66 ) ;
#146 = LINE ( 'NONE', #88, #261 ) ;
#147 = MECHANICAL_CONTEXT ( 'NONE', #267, 'mechanical' ) ;
#148 = EDGE_CURVE ( 'NONE', #63, #311, #24, .T. ) ;
#149 = ORIENTED_EDGE ( 'NONE', *, *, #162, .T. ) ;
#150 = VERTEX_POINT ( 'NONE', #200 ) ;
#151 = DIRECTION ( 'NONE',  ( -1.000000000000000000, -0.000000000000000000, -0.000000000000000000 ) ) ;
#152 = DATE_AND_TIME ( #215, #144 ) ;
#153 = CARTESIAN_POINT ( 'NONE',  ( -1.500000000000000000, 0.000000000000000000, 0.000000000000000000 ) ) ;
#154 = CIRCLE ( 'NONE', #136, 3.000000000000000000 ) ;
#155 = CARTESIAN_POINT ( 'NONE',  ( -0.5000000000000002220, 3.000000000000000000, 0.000000000000000000 ) ) ;
#156 = AXIS2_PLACEMENT_3D ( 'NONE', #176, #171, #228 ) ;
#157 = DIRECTION ( 'NONE',  ( 0.000000000000000000, 0.000000000000000000, -1.000000000000000000 ) ) ;
#158 = CARTESIAN_POINT ( 'NONE',  ( -1.500000000000000000, 0.000000000000000000, 0.000000000000000000 ) ) ;
#159 = CIRCLE ( 'NONE', #191, 5.000000000000000000 ) ;
#160 = DIRECTION ( 'NONE',  ( -1.000000000000000000, -0.000000000000000000, -0.000000000000000000 ) ) ;
#161 = EDGE_LOOP ( 'NONE', ( #217, #11, #32, #181 ) ) ;
#162 = EDGE_CURVE ( 'NONE', #284, #138, #310, .T. ) ;
#163 = PERSON_AND_ORGANIZATION_ROLE ( 'creator' ) ;
#164 = EDGE_LOOP ( 'NONE', ( #86, #184, #141, #305 ) ) ;
#165 = CARTESIAN_POINT ( 'NONE',  ( -1.500000000000000000, 3.673940397442059868E-16, -3.000000000000000000 ) ) ;
#166 = EDGE_CURVE ( 'NONE', #115, #138, #301, .T. ) ;
#167 = LOCAL_TIME ( 16, 53, 54.00000000000000000, #326 ) ;
#168 = DIRECTION ( 'NONE',  ( -1.000000000000000000, -0.000000000000000000, -0.000000000000000000 ) ) ;
#169 = PRODUCT_DEFINITION_SHAPE ( 'NONE', 'NONE',  #93 ) ;
#170 = CARTESIAN_POINT ( 'NONE',  ( 1.500000000000000444, 0.000000000000000000, 0.000000000000000000 ) ) ;
#171 = DIRECTION ( 'NONE',  ( -1.000000000000000000, -0.000000000000000000, -0.000000000000000000 ) ) ;
#172 = CARTESIAN_POINT ( 'NONE',  ( 1.500000000000000000, 0.000000000000000000, 5.000000000000000000 ) ) ;
#173 = EDGE_CURVE ( 'NONE', #308, #22, #139, .T. ) ;
#174 = CARTESIAN_POINT ( 'NONE',  ( 1.500000000000000000, 0.000000000000000000, 0.000000000000000000 ) ) ;
#175 = ADVANCED_FACE ( 'NONE', ( #16 ), #15, .F. ) ;
#176 = CARTESIAN_POINT ( 'NONE',  ( 1.500000000000000000, 0.000000000000000000, 0.000000000000000000 ) ) ;
#177 = APPROVAL_PERSON_ORGANIZATION ( #319, #6, #188 ) ;
#178 = FACE_BOUND ( 'NONE', #3, .T. ) ;
#179 = CYLINDRICAL_SURFACE ( 'NONE', #122, 5.000000000000000000 ) ;
#180 = SHAPE_DEFINITION_REPRESENTATION ( #169, #18 ) ;
#181 = ORIENTED_EDGE ( 'NONE', *, *, #302, .F. ) ;
#182 = PRODUCT_DEFINITION_FORMATION_WITH_SPECIFIED_SOURCE ( 'ANY', '', #38, .NOT_KNOWN. ) ;
#183 = ORIENTED_EDGE ( 'NONE', *, *, #74, .F. ) ;
#184 = ORIENTED_EDGE ( 'NONE', *, *, #238, .T. ) ;
#185 = EDGE_LOOP ( 'NONE', ( #260, #183 ) ) ;
#186 = CIRCLE ( 'NONE', #130, 5.000000000000000000 ) ;
#187 = DIRECTION ( 'NONE',  ( -1.000000000000000000, -0.000000000000000000, -0.000000000000000000 ) ) ;
#188 = APPROVAL_ROLE ( '' ) ;
#189 = ORIENTED_EDGE ( 'NONE', *, *, #297, .F. ) ;
#190 = CYLINDRICAL_SURFACE ( 'NONE', #334, 3.000000000000000000 ) ;
#191 = AXIS2_PLACEMENT_3D ( 'NONE', #174, #330, #125 ) ;
#192 = DATE_TIME_ROLE ( 'classification_date' ) ;
#193 = DIRECTION ( 'NONE',  ( -1.000000000000000000, -0.000000000000000000, -0.000000000000000000 ) ) ;
#194 = PRODUCT_RELATED_PRODUCT_CATEGORY ( 'detail', '', ( #38 ) ) ;
#195 = DIRECTION ( 'NONE',  ( -1.000000000000000000, -0.000000000000000000, -0.000000000000000000 ) ) ;
#196 = AXIS2_PLACEMENT_3D ( 'NONE', #265, #60, #81 ) ;
#197 = PLANE ( 'NONE',  #59 ) ;
#198 = EDGE_CURVE ( 'NONE', #22, #308, #230, .T. ) ;
#199 = CALENDAR_DATE ( 2020, 22, 12 ) ;
#200 = CARTESIAN_POINT ( 'NONE',  ( -0.5000000000000002220, 0.000000000000000000, 3.000000000000000000 ) ) ;
#201 = DIRECTION ( 'NONE',  ( 1.000000000000000000, 0.000000000000000000, 0.000000000000000000 ) ) ;
#202 = DIRECTION ( 'NONE',  ( 0.000000000000000000, 0.000000000000000000, 1.000000000000000000 ) ) ;
#203 = AXIS2_PLACEMENT_3D ( 'NONE', #170, #248, #222 ) ;
#204 = CARTESIAN_POINT ( 'NONE',  ( 0.5000000000000002220, 3.000000000000000000, 0.000000000000000000 ) ) ;
#205 = ORIENTED_EDGE ( 'NONE', *, *, #133, .F. ) ;
#206 = CC_DESIGN_PERSON_AND_ORGANIZATION_ASSIGNMENT ( #142, #213, ( #182 ) ) ;
#207 = ORIENTED_EDGE ( 'NONE', *, *, #44, .F. ) ;
#208 = AXIS2_PLACEMENT_3D ( 'NONE', #128, #39, #43 ) ;
#209 = ORIENTED_EDGE ( 'NONE', *, *, #238, .F. ) ;
#210 = CIRCLE ( 'NONE', #239, 3.000000000000000000 ) ;
#211 = CC_DESIGN_PERSON_AND_ORGANIZATION_ASSIGNMENT ( #119, #55, ( #38 ) ) ;
#212 = PLANE ( 'NONE',  #221 ) ;
#213 = PERSON_AND_ORGANIZATION_ROLE ( 'design_supplier' ) ;
#214 = FACE_OUTER_BOUND ( 'NONE', #161, .T. ) ;
#215 = CALENDAR_DATE ( 2020, 22, 12 ) ;
#216 = ADVANCED_FACE ( 'NONE', ( #276 ), #179, .T. ) ;
#217 = ORIENTED_EDGE ( 'NONE', *, *, #173, .F. ) ;
#218 = ORIENTED_EDGE ( 'NONE', *, *, #329, .F. ) ;
#219 = CC_DESIGN_PERSON_AND_ORGANIZATION_ASSIGNMENT ( #244, #83, ( #76 ) ) ;
#220 = APPROVAL_ROLE ( '' ) ;
#221 = AXIS2_PLACEMENT_3D ( 'NONE', #232, #312, #229 ) ;
#222 = DIRECTION ( 'NONE',  ( 0.000000000000000000, 0.000000000000000000, 1.000000000000000000 ) ) ;
#223 = CYLINDRICAL_SURFACE ( 'NONE', #208, 5.000000000000000000 ) ;
#224 = APPROVAL_ROLE ( '' ) ;
#225 = CC_DESIGN_APPROVAL ( #6, ( #182 ) ) ;
#226 = DIRECTION ( 'NONE',  ( -1.000000000000000000, -0.000000000000000000, -0.000000000000000000 ) ) ;
#227 = CARTESIAN_POINT ( 'NONE',  ( 1.500000000000000444, 0.000000000000000000, 0.000000000000000000 ) ) ;
#228 = DIRECTION ( 'NONE',  ( 0.000000000000000000, 0.000000000000000000, 1.000000000000000000 ) ) ;
#229 = DIRECTION ( 'NONE',  ( -0.000000000000000000, 0.000000000000000000, 1.000000000000000000 ) ) ;
#230 = CIRCLE ( 'NONE', #288, 3.000000000000000000 ) ;
#231 = APPROVAL_DATE_TIME ( #299, #279 ) ;
#232 = CARTESIAN_POINT ( 'NONE',  ( 1.500000000000000222, 5.000000000000000000, 0.000000000000000000 ) ) ;
#233 = ORIENTED_EDGE ( 'NONE', *, *, #69, .T. ) ;
#234 = DIRECTION ( 'NONE',  ( -1.000000000000000000, 0.000000000000000000, -0.000000000000000000 ) ) ;
#235 = EDGE_CURVE ( 'NONE', #138, #284, #186, .T. ) ;
#236 = DIRECTION ( 'NONE',  ( 0.000000000000000000, 0.000000000000000000, 1.000000000000000000 ) ) ;
#237 = ORIENTED_EDGE ( 'NONE', *, *, #148, .F. ) ;
#238 = EDGE_CURVE ( 'NONE', #107, #150, #210, .T. ) ;
#239 = AXIS2_PLACEMENT_3D ( 'NONE', #2, #257, #282 ) ;
#240 = CARTESIAN_POINT ( 'NONE',  ( -1.614212418857619014, 3.673940397442059868E-16, -3.000000000000000000 ) ) ;
#241 = APPLICATION_CONTEXT ( 'configuration controlled 3d designs of mechanical parts and assemblies' ) ;
#242 = APPROVAL_STATUS ( 'not_yet_approved' ) ;
#243 = ORIENTED_EDGE ( 'NONE', *, *, #121, .F. ) ;
#244 = PERSON_AND_ORGANIZATION ( #96, #66 ) ;
#245 = CARTESIAN_POINT ( 'NONE',  ( -1.614212418857619014, 0.000000000000000000, 0.000000000000000000 ) ) ;
#246 = DATE_AND_TIME ( #293, #113 ) ;
#247 = DIRECTION ( 'NONE',  ( -1.000000000000000000, -0.000000000000000000, -0.000000000000000000 ) ) ;
#248 = DIRECTION ( 'NONE',  ( -1.000000000000000000, -0.000000000000000000, -0.000000000000000000 ) ) ;
#249 = CC_DESIGN_DATE_AND_TIME_ASSIGNMENT ( #152, #114, ( #93 ) ) ;
#250 = DIRECTION ( 'NONE',  ( -1.000000000000000000, -0.000000000000000000, -0.000000000000000000 ) ) ;
#251 = PERSON_AND_ORGANIZATION ( #96, #66 ) ;
#252 = DIRECTION ( 'NONE',  ( 0.000000000000000000, 0.000000000000000000, 1.000000000000000000 ) ) ;
#253 = CC_DESIGN_APPROVAL ( #279, ( #76 ) ) ;
#254 = CARTESIAN_POINT ( 'NONE',  ( -1.614212418857619014, 0.000000000000000000, 5.000000000000000000 ) ) ;
#255 = CARTESIAN_POINT ( 'NONE',  ( -1.500000000000000000, 6.123233995736766282E-16, -5.000000000000000000 ) ) ;
#256 = CC_DESIGN_DATE_AND_TIME_ASSIGNMENT ( #117, #192, ( #76 ) ) ;
#257 = DIRECTION ( 'NONE',  ( 1.000000000000000000, 0.000000000000000000, 0.000000000000000000 ) ) ;
#258 = APPROVAL_PERSON_ORGANIZATION ( #17, #31, #220 ) ;
#259 = PLANE ( 'NONE',  #54 ) ;
#260 = ORIENTED_EDGE ( 'NONE', *, *, #118, .F. ) ;
#261 = VECTOR ( 'NONE', #193, 1000.000000000000000 ) ;
#262 = LINE ( 'NONE', #335, #40 ) ;
#263 = DATE_AND_TIME ( #33, #35 ) ;
#264 = ORIENTED_EDGE ( 'NONE', *, *, #235, .T. ) ;
#265 = CARTESIAN_POINT ( 'NONE',  ( 0.000000000000000000, 0.000000000000000000, 0.000000000000000000 ) ) ;
#266 = ORIENTED_EDGE ( 'NONE', *, *, #235, .F. ) ;
#267 = APPLICATION_CONTEXT ( 'configuration controlled 3d designs of mechanical parts and assemblies' ) ;
#268 = AXIS2_PLACEMENT_3D ( 'NONE', #84, #187, #98 ) ;
#269 = APPROVAL_DATE_TIME ( #246, #31 ) ;
#270 = CYLINDRICAL_SURFACE ( 'NONE', #307, 3.000000000000000000 ) ;
#271 = LOCAL_TIME ( 16, 53, 54.00000000000000000, #10 ) ;
#272 = ORIENTED_EDGE ( 'NONE', *, *, #198, .F. ) ;
#273 = EDGE_CURVE ( 'NONE', #107, #28, #49, .T. ) ;
#274 = CARTESIAN_POINT ( 'NONE',  ( 1.500000000000000444, 0.000000000000000000, 3.000000000000000000 ) ) ;
#275 = CARTESIAN_POINT ( 'NONE',  ( -1.500000000000000000, 0.000000000000000000, 5.000000000000000000 ) ) ;
#276 = FACE_OUTER_BOUND ( 'NONE', #333, .T. ) ;
#277 = APPLICATION_PROTOCOL_DEFINITION ( 'international standard', 'config_control_design', 1994, #241 ) ;
#278 = CIRCLE ( 'NONE', #105, 3.000000000000000000 ) ;
#279 = APPROVAL ( #314, 'UNSPECIFIED' ) ;
#280 = DIRECTION ( 'NONE',  ( -1.000000000000000000, -0.000000000000000000, -0.000000000000000000 ) ) ;
#281 = ORIENTED_EDGE ( 'NONE', *, *, #198, .T. ) ;
#282 = DIRECTION ( 'NONE',  ( 0.000000000000000000, 0.000000000000000000, -1.000000000000000000 ) ) ;
#283 = CC_DESIGN_APPROVAL ( #31, ( #93 ) ) ;
#284 = VERTEX_POINT ( 'NONE', #255 ) ;
#285 = ORIENTED_EDGE ( 'NONE', *, *, #297, .T. ) ;
#286 = CIRCLE ( 'NONE', #268, 3.000000000000000000 ) ;
#287 = ORIENTED_EDGE ( 'NONE', *, *, #133, .T. ) ;
#288 = AXIS2_PLACEMENT_3D ( 'NONE', #227, #195, #72 ) ;
#289 = APPLICATION_PROTOCOL_DEFINITION ( 'international standard', 'config_control_design', 1994, #267 ) ;
#290 = VERTEX_POINT ( 'NONE', #134 ) ;
#291 = LINE ( 'NONE', #120, #99 ) ;
#292 = ADVANCED_FACE ( 'NONE', ( #29 ), #259, .F. ) ;
#293 = CALENDAR_DATE ( 2020, 22, 12 ) ;
#294 = CARTESIAN_POINT ( 'NONE',  ( -1.614212418857619014, 0.000000000000000000, 0.000000000000000000 ) ) ;
#295 = FACE_OUTER_BOUND ( 'NONE', #53, .T. ) ;
#296 = DESIGN_CONTEXT ( 'detailed design', #241, 'design' ) ;
#297 = EDGE_CURVE ( 'NONE', #150, #107, #61, .T. ) ;
#298 = CARTESIAN_POINT ( 'NONE',  ( -1.500000000000000000, 3.000000000000000000, 0.000000000000000000 ) ) ;
#299 = DATE_AND_TIME ( #199, #167 ) ;
#300 = DIRECTION ( 'NONE',  ( 0.000000000000000000, 0.000000000000000000, -1.000000000000000000 ) ) ;
#301 = LINE ( 'NONE', #254, #1 ) ;
#302 = EDGE_CURVE ( 'NONE', #22, #63, #262, .T. ) ;
#303 = AXIS2_PLACEMENT_3D ( 'NONE', #100, #226, #202 ) ;
#304 = DIRECTION ( 'NONE',  ( -1.000000000000000000, -0.000000000000000000, -0.000000000000000000 ) ) ;
#305 = ORIENTED_EDGE ( 'NONE', *, *, #118, .T. ) ;
#306 = DIRECTION ( 'NONE',  ( -1.000000000000000000, -0.000000000000000000, -0.000000000000000000 ) ) ;
#307 = AXIS2_PLACEMENT_3D ( 'NONE', #294, #34, #92 ) ;
#308 = VERTEX_POINT ( 'NONE', #110 ) ;
#309 = CARTESIAN_POINT ( 'NONE',  ( 0.5000000000000004441, 3.673940397442059868E-16, -3.000000000000000000 ) ) ;
#310 = CIRCLE ( 'NONE', #46, 5.000000000000000000 ) ;
#311 = VERTEX_POINT ( 'NONE', #309 ) ;
#312 = DIRECTION ( 'NONE',  ( -1.000000000000000000, 0.000000000000000000, -0.000000000000000000 ) ) ;
#313 = VERTEX_POINT ( 'NONE', #75 ) ;
#314 = APPROVAL_STATUS ( 'not_yet_approved' ) ;
#315 = ORIENTED_EDGE ( 'NONE', *, *, #131, .T. ) ;
#316 = SECURITY_CLASSIFICATION_LEVEL ( 'unclassified' ) ;
#317 = CARTESIAN_POINT ( 'NONE',  ( -1.614212418857619014, 0.000000000000000000, 0.000000000000000000 ) ) ;
#318 =( GEOMETRIC_REPRESENTATION_CONTEXT ( 3 ) GLOBAL_UNCERTAINTY_ASSIGNED_CONTEXT ( ( #5 ) ) GLOBAL_UNIT_ASSIGNED_CONTEXT ( ( #48, #77, #50 ) ) REPRESENTATION_CONTEXT ( 'NONE', 'WORKASPACE' ) );
#319 = PERSON_AND_ORGANIZATION ( #96, #66 ) ;
#320 = EDGE_LOOP ( 'NONE', ( #205, #322 ) ) ;
#321 = CIRCLE ( 'NONE', #156, 5.000000000000000000 ) ;
#322 = ORIENTED_EDGE ( 'NONE', *, *, #131, .F. ) ;
#323 = CYLINDRICAL_SURFACE ( 'NONE', #104, 3.000000000000000000 ) ;
#324 = DIRECTION ( 'NONE',  ( 0.000000000000000000, 0.000000000000000000, 1.000000000000000000 ) ) ;
#325 = FACE_OUTER_BOUND ( 'NONE', #58, .T. ) ;
#326 = COORDINATED_UNIVERSAL_TIME_OFFSET ( 8, 0, .AHEAD. ) ;
#327 = DIRECTION ( 'NONE',  ( 1.000000000000000000, 0.000000000000000000, 0.000000000000000000 ) ) ;
#328 = ADVANCED_FACE ( 'NONE', ( #103, #178 ), #212, .F. ) ;
#329 = EDGE_CURVE ( 'NONE', #150, #290, #106, .T. ) ;
#330 = DIRECTION ( 'NONE',  ( -1.000000000000000000, -0.000000000000000000, -0.000000000000000000 ) ) ;
#331 = ORIENTED_EDGE ( 'NONE', *, *, #166, .T. ) ;
#332 = DIRECTION ( 'NONE',  ( -0.000000000000000000, 0.000000000000000000, 1.000000000000000000 ) ) ;
#333 = EDGE_LOOP ( 'NONE', ( #62, #315, #331, #102 ) ) ;
#334 = AXIS2_PLACEMENT_3D ( 'NONE', #317, #37, #64 ) ;
#335 = CARTESIAN_POINT ( 'NONE',  ( -1.614212418857619014, 0.000000000000000000, 3.000000000000000000 ) ) ;
ENDSEC;
END-ISO-10303-21;
